All Of Us

 

Intro & verse
E|--------------------------------------------------------------------------|
B|--------------------------------------------------------------------------|
G|------2------2--------6------6---6--------4-----4---4--------6-----6---6--|
D|----0------0---2-s4-4------4---4---4-s2-2-----2---2---2-s4-4-----4---4----|
A|--0------0---------------0------------------0------------------0----------|
E|--------------------------------------------------------------------------|

Break
E|------------------------------------------------|
B|----------------------2------------2------------|
G|--------------------4---4-2---2--4---4-2---2----|
D|---------2------------------4------------4---2--|
A|-0-0-2-4---4-2-4--------------------------------|
E|------------------------------------------------|

2nd time
E|-----------------------------------------------------------------|
B|----------------------2------------2--------------------0-h2-h3--|
G|--------------------4---4-2---2--4---4-2---2-1-1-h2-h4-----------|
D|---------2------------------4------------4-----------------------|
A|-0-0-2-4---4-2-4-------------------------------------------------|
E|-----------------------------------------------------------------|