Angle Park

Intro

(Bass)
E|-------------------------------------------------------------------|
B|-------------------------------------------------------------------|
G|-------------------------------------------------------------------|
D|-------4-4-4-4-4-4-4-4-4-4-4-4-4--------4-5-5-5-5-5-5-5-5-5-5-5-5--|
A|-5-5-7------------------------------7-7----------------------------|
E|-------------------------------------------------------------------|

Guitar
E|--------------14>>>>>>>>>>>>>>------------------14>>>>>>>>>>>>>>>---------|
B|--------------------------------------------------------------------------|
G|--------------------------------------------------------------------------|
D|--------------------------------------------------------------------------|
A|--------------------------------------------------------------------------|
E|--------------------------------------------------------------------------|

 

E|-15-14-12-----------------------15-14-12---------------------|
B|----------15-15--12-12-15----------------15-15--12-12-15-----|
G|--------------------------14-----------------------------14--|
D|-------------------------------------------------------------|
A|-------------------------------------------------------------|
E|-------------------------------------------------------------|

Intro
E|-2---0-2---2------2---0-2---2------2---0-2---2------2---0-2---2----|
B|---3-----3---3------3-----3---3------3-----3---3------3-----3---3--|
G|-------------------------------------------------------------------|
D|-------------------------------------------------------------------|
A|-------------------------------------------------------------------|
E|-------------------------------------------------------------------|

 

E|-5---7-5---5-7----5---7-5---5-7----7----7-7----7----10----10-10----10--|
B|---7-----7----------7-----7----------10-----10---------12-------12-----|
G|-----------------------------------------------------------------------|
D|-----------------------------------------------------------------------|
A|-----------------------------------------------------------------------|
E|-----------------------------------------------------------------------|

Verse - repeat throughout
E|--------5--5-7--10-9---|
B|-5-7--7----------------|
G|-----------------------|
D|-----------------------|
A|-----------------------|
E|-----------------------|
The autumn howled. . . .

Chorus
E|------------------------------------------------------------10----17-15--|
B|-12-10----10--------12-10----10--------12-10----10-------------10--------|
G|-------11----11-----------11----11-----------11----11--------------------|
D|----------------12-----------------12-----------------12-----------------|
A|-------------------------------------------------------------------------|
E|-------------------------------------------------------------------------|
In Angle Park . . . .

Post chorus
E|---------------------------------------------|
B|---------------------------------------------|
G|----11-14-------4-2-------11-14----11---7-6--|
D|-0-----------0---------0--------------0------|
A|---------------------------------------------|
E|---------------------------------------------|

 

E|-----------------------------------------------------|
B|-----------------------------------------------------|
G|----16-19-------16-14--------16-19-16---12---11---7--|
D|-0-----------0------------0-----------0----0----0----|
A|-----------------------------------------------------|
E|-----------------------------------------------------|

 
======================================================================

Angle Park

Intro:     D    G/D  D    G/D  D    G/D  D    G/D

D                                G/D
The autumn howled around the heads
                                 D
That hung so black with lips so red
                                      G/D
The blooms had withered, leaves were shed
                                      D
Tongues stuck in jaws, sad clowns parade
                                 G/D
The crushing whine began its call

And pointed fingers at us all

D
In Angle Park the lights are dimmed, the statues grin

In Angle Park the fountains crack in Angle Park

D                                G/D
The beaten cry behind white dress
                                 D
The clowns stuck fast upon the mesh
                                      G/D
While mothers ring their hands of tears
                                 D
The spelling books are in arrears
                           G/D
The evil genius hugs his wife
                                D
As tiles ring with fear of life
                                 G/D
The window fills with beating hearts

Beat on blindly, beat it all

D
In Angle Park the lights are dimmed, the statues grin

In Angle Park the fountains crack in Angle Park