Birmingham

Capo 3rd fret - tab in relation to capo

Intro

     Csus4       Gm7+5      Bb            Gm7
g |---------------------------------------------
D |-3-3-3-------3-3-3-------3-3-3---------3-3-3-
Bb|-2-2-2-4-2-0-0-0-0-0-----0-0-0---0-----0-0-0-
F |-0-0-0-------2-2-2---2-0-0-0-0-0---4-2-2-2-2-
C |-0-0-0-------3-3-3-------2-2-2---------2-2-2-
G |-0-0-0-------0-0-0-------3-3-3---------0-0-0-

Throughout song
g |-----0-0--------0-0--------0-0--------0-0---
D |-3-3-3-3-3--3-3-3-3-3--3-3-3-3-3--3-3-3-3-3-
Bb|-2-2-2-2-2--0-0-0-0-0--0-0-0-0-0--0-0-0-0-0-
F |-0-0-0-0-0--2-2-2-2-2--0-0-0-0-0--2-2-2-2-2-
C |-0-0-0-0-0--3-3-3-3-3--2-2-2-2-2--2-2-2-2-2-
G |-0-0-0-0-0--0-0-0-0-0--3-3-3-3-3--0-0-0-0-0-

Guitar break
g |-------------------------------------------------------------------
D |------------------16-16-16-h18-p16---------------------------------
Bb|-18-p15----15-h18------------------18-15-15-15-h18-p15-------------
F |-------------------------------------------------------18-15-15-15-
C |-------------------------------------------------------------------
G |-------------------------------------------------------------------

g |--------------
D |--------------
Bb|-----18-17-15-
F |-h18----------
C |--------------
G |--------------

g |-0----0----0----0----0----0--------0--------------------------------      
D |-3----3----3----3----3----3--------3--------------------------------
Bb|-2----0----2----0----2----0--------2--------------------------------
F |-0----2----0----2----0----2--------0--------------------------------
C |-0----3----0----3----0----3--------0--------------------------------
G |-0----0----0----0----0----0--------0--------------------------------
Thank you. . . . .