Broken Heart (Thirteen Valleys)

Intro

E|--------------------------------------------------------------------|
B|--------------------------------------------------------------------|
G|----9-----9-----9-----9-----9-----9-----9-----9-----9-----9-----9---|
D|---7-7---7-7---7-7---7-7---7-7---7-7---7-7---7-7---7-7---7-7---7-7--|
A|--0-----0-----0-----0-----0-----0-----0-----0-----0-----0-----0-----|
E|--------------------------------------------------------------------|

E|--------------------------------------------------------|
B|--------------------------------------------------------|
G|----9-----9-----9-----9-----9-----9-----9-----9-----9---|
D|---7-7---7-7---7-7---7-7---7-7---7-7---7-7---7-7---7-7--|
A|--0-----0-----0-----9-----7-----0-----0-----0-----0-----|
E|--------------------------------------------------------|
Thirteen valleys he has wandered for her love

E|--------------------------------------------------------|
B|--------------------------------------------------------|
G|-----11-------11------7-----7---------------------------|
D|---11--11---11--11---7-7---7-7-----9-----9-----9-----9--|
A|--9--------9--------5-----5-------7-7---7-7---7-7---7-7-|
E|---------------------------------0-----0-----0-----0----|
For he thinks he is the one that she dreams of

E|--------------------------------------------------------------|
B|--------------------------------------------------------------|
G|--------------------------------------------------------------|
D|----9-----9-----9----------12--------12--------12--------12---|
A|---9-9---9-9---9-9-------12--12----12--12----12--12----12--12-|
E|--7-----7-----7-----9--10--------10--------10--------10-------|
But her bed was made elsewhere from the first day she got there

E|----------------------------------------------------|
B|----------------------------------------------------|
G|----9-----9------------------7-----7-----7------8---|
D|---7-7---7-7----9-----9-----7-7---7-7---7-7----8-8--|
A|--0-----0------7-7---7-7---5-----5-----5------6-----|
E|--------------0-----0-------------------------------|
Now he wanders thirteen valleys crying out

E|--------------------------------------------------|
B|--------------------------------------------------|
G|----9-----9-----7-----7-----9-----9-----9-----9---|
D|---9-9---9-9---7-7---7-7---7-7---7-7---7-7---7-7--|
A|--7-----7-----5-----5-----0-----0-----0-----0-----|
E|--------------------------------------------------|
Now he wanders thirteen valleys crying out

E|---------------------------------------------------------------|
B|---------------------------------------------------------------|
G|----9------9-----9-----9------11-------11-------11-------11----|
D|---9-9----9-9---9-9---9-9---11--11---11--11---11--11---11--11--|
A|--7------7-----7-----7-----9--------9--------9--------9--------|
E|---------------------------------------------------------------|
It could have been me      I said it could have been me

E|--------------------------------------------------------------|
B|--------------------------------------------------------------|
G|----7-----7-----9-----9------11-------11-------11-------11----|
D|---7-7---7-7---9-9---9-9---11--11---11--11---11--11---11--11--|
A|--5-----5-----7-----7-----9--------9--------9--------9--------|
E|--------------------------------------------------------------|
A broken heart needs someone new to blame it on

E|---------------------------------------------------------------------------------------|
B|---------------------------------------------------------------------------------------|
G|----7-----7-----9-----9-----9-----9-----9-----9----------------------------------------|
D|---7-7---7-7---9-9---9-9---7-7---7-7---7-7---7-7---------------------------------------|
A|--5-----5-----7-----7-----0-----0-----0-----0------------------------------------------|
E|---------------------------------------------------------------------------------------|
A broken heart needs someone new to blame it on

Thirteen valleys she has gone since the morning came
For he gave so much that only love remains
But her lover is long gone with the money she sent on
Now he wanders thirteen valleys crying out
He wanders thirteen valleys crying out

It could have been me      I said it could have been me
A broken heart needs someone new to blame it on
A broken heart needs someone new to blame it on

   F#m          Esus2      Dsus2
E|---9-----------7--------------5------|
B|--10-----------7--------------5------|
G|--11-----------9--------------7------|
D|--11-----------9--------------7------|
A|-------------------------------------|
E|-------------------------------------|

         F#m            Esus2   Dsus2
That broken heart will be forever and a lifetime
           F#m       Esus2         Dsus2
That broken heart will try your love like none before
      F#m       Dsus2               F#m         Esus2
You may fight or you may run for what was fast is now undone
       Dsus2            Esus2        F#m
A broken heart needs someone new to blame it on
        Dsus2        Esus2           A
A broken heart needs someone new to blame it on

Middle
E|---------------------------------------------------------------------------------------|
B|---------------------------------------------------------------------------------------|
G|----9-----9-----9-----9------12-------12-------12-------12-------13-------13-----------|
D|---7-7---7-7---7-7---7-7---12--12---12--12---12--12---12--12---14--14---14--14---------|
A|--0-----0-----0-----0-----0--------0--------0--------0--------0--------0---------------|
E|---------------------------------------------------------------------------------------|

E|---------------------------------------------------------------------------------------|
B|---------------------------------------------------------------------------------------|
G|-----11-------11------6-----6-----6-----6-----6-----6-----6-----6------11-------11-----|
D|---12--12---12--12---7-7---7-7---7-7---7-7---7-7---7-7---7-7---7-7---12--12---12--12---|
A|--0--------0--------0-----0-----0-----0-----0-----0-----0-----0-----0--------0---------|
E|---------------------------------------------------------------------------------------|

E|---------------------------------------------------------------------------------------|
B|---------------------------------------------------------------------------------------|
G|-----11-------11-------13-------13-------11-------11------6-----6-----6-----6----------|
D|---12--12---12--12---14--14---14--14---12--12---12--12---7-7---7-7---7-7---7-7---------|
A|--0--------0--------0--------0--------0--------0--------0-----0-----0-----0------------|
E|---------------------------------------------------------------------------------------|

    A    D     E     D     A    D     E     D     A    D     E     D     A    E
E|--5----10----12----10----5----10----12----10----5----10----12----10----5--------|
B|--6----10----12----10----6----10----12----10----6----10----12----10----6--------|
G|--7----11----13----11----7----11----13----11----7----11----13----11----7----9---|
D|--7----12----14----12----7----12----14----12----7----12----14----12----7----7---|
A|--5----12----14----12----5----12----14----12----5----12----14----12----5----7---|
E|--5----10----12----10----5----10----12----10----5----10----12----10----5----0---|

Thirteen valleys lying silent in the haze
Filled with promises and spirits that we raised
But with the spirits all are ghosts of the ones we hurt the most
They wander thirteen valleys crying out
They wander thirteen valleys crying out

It could have been me      I said it could have been me -|
A broken heart needs someone new to blame it on       | X2
A broken heart needs someone new to blame it on       -|   



======================================================================

Broken Heart (Thirteen Valleys)

Intro :    A
A
Thirteen valleys he has wandered for her love
      F#m            D                     E
For he thinks he is the one that she dreams of
      Bm                        D
But her bed was made elsewhere from the first day she got there
     A              E           D
Now he wanders thirteen valleys crying out
     E              D           A
Now he wanders thirteen valleys crying out

                 Esus4     F#m7
It could have been me      I said it could have been me
        D               Esus4        F#m7
A broken heart needs someone new to blame it on
        D               Esus4        A
A broken heart needs someone new to blame it on

Thirteen valleys she has gone since morning came
She gave so much that only love remains
But her lover is long gone with the money she sent on
Now she wanders thirteen valleys crying out                 (repeat x2)

It could have been me      I said it could have been me
A broken heart needs someone new to blame it on             (repeat x2)

           F#m7         E       D
That broken heart will be forever and a lifetime
           F#m7            E            D
That broken heart will try your love like none before
      F#m               D            F#m
You may fight or you may run for what was fast is now undone
E            D           E            F#m
A broken heart needs someone new to blame it on
E            D           E            A
A broken heart needs someone new to blame it on

Thirteen valleys lying silent in the haze
Filled with promises and spirits that we raised
But with the spirits all are ghosts of the ones we hurt the most
And they wander thirteen valleys crying out                 (repeat x2)
And they wander thirteen valleys crying out

It could have been me I said it could have been me
A broken heart needs someone new to blame it on             (repeat x2)

That broken heart will be forever and a lifetime
That broken heart will try your love like none before
You may fight or you may run for what was fast is now undone
A broken heart needs someone new to blame it on             (repeat x2)

CHORD | E A D G B e
A     | X 0 2 2 2 0
Bm    | X 2 4 4 3 1
D     | X X 0 2 3 2
E     | 0 2 2 1 0 0
Esus4 | 0 2 2 2 0 0
F#m   | 2 4 4 2 2 2
F#m7  | 2 4 2 2 2 2