Charlotte

Intro & verse (play on e-bow or long sustain and pluck 6th string)
E|-------------------------12--|        E|-----------|
B|-----------------------------| Play   B|-----------|
G|--9--11-s13--11-h13-p11------| 3      G|--4--6--7--|
D|-----------------------------| times  D|-----------|
A|-----------------------------|        A|-----------|
E|-----------------------------|        E|-----------|

 

Chorus (play on e-bow or long sustain)
E|---------------------------------------------------------------------------|
B|--12--10--12--14--12--10--12--14--17--12--10--12--14--12--10--9--10-12-10--|
G|---------------------------------------------------------------------------|
D|---------------------------------------------------------------------------|
A|---------------------------------------------------------------------------|
E|---------------------------------------------------------------------------|
Charlotte's in her ice-box

First solo
E|------------------------------14--17--|
B|------14--17------14--17--14----------| Play
G|--16----------16----------------------| 3
D|--------------------------------------| times
A|--------------------------------------|
E|--------------------------------------|

E|------14--17------14--17------19--21--|
B|--17----------17----------17----------|
G|--------------------------------------|
D|--------------------------------------|
A|--------------------------------------|
E|--------------------------------------|

Second solo & outro
E|-------------------------------------------------------------|
B|----------14--17--17--14-h17-p14------14---------------------|
G|--14-h16-------------------------h16------16--14--16-16-p14--|
D|-------------------------------------------------------------|
A|-------------------------------------------------------------|
E|-------------------------------------------------------------|

E|-------------------------------------------------------------|
B|----------14--17--17--14-h17-p14------14----------17-17-p14--|
G|--14-h16-------------------------h16------16--14-------------|
D|-------------------------------------------------------------|
A|-------------------------------------------------------------|
E|-------------------------------------------------------------|

E|--------------------------------------------------17--17--17-p14-------------|
B|----------14--17--17--14-h17-p14------14--------------------------17--14--17-|
G|--14-h16-------------------------h16------16--14-----------------------------|
D|-----------------------------------------------------------------------------|
A|-----------------------------------------------------------------------------|
E|-----------------------------------------------------------------------------|

E|----------------------------------------------|
B|--17--17--14-h17-p14------14------------------|
G|---------------------h16------16--14--16--14--|
D|----------------------------------------------|
A|----------------------------------------------|
E|----------------------------------------------|