Dive Into Me

Intro (& verse)
E|--------0---------------0-------------------0---------------0------|
B|------3---3-----------3---3---------------3---3-----------3---3----|
G|----0---------------0-------0-----------0---------------0-------2--|
D|--2---------------2-------------------2---------------2------------|
A|-------------------------------------------------------------------|
E|-------------------------------------------------------------------|

Em   C    G  x3           Em   C    D
E|----------------3--3--3--3--3--3--3--3--|                E------------------|
B|----------------3--3--5--3--5--3--5--3--| play 3 times   B------------------|
G|--4-h5-4--5--5--------------------------| during intro   G-4-h5-4--5--5--2--|
D|--2-------5--5--------------------------| and verse      D-2-------5--5--0--|
A|----------------------------------------| then play ->   A------------------|
E|----------------------------------------|                E------------------|

Chords during chorus
G    G/F# Em   D          Em   F#m  G    Bm   D
Am   Em   C    G          Am   Em   C    D

Break
E|-----------------------------------------|
B|-----------------------------------------|
G|--------0--------0----------0--------0---|
D|-----2--------2----------2--------2------|
A|--2--------2----------3--------3---------|
E|-----------------------------------------|

E------------------------------------------------------------------------------
B------------------------------------------------------------------------------
G-------0--------0----------0--------0----------0--------0--------0--------0---
D----2--------2----------2--------2--------------------------------------------
A-2--------2----------3--------3-------------2--------2--------2--------2------
E-----------------------------------------3--------3--------3--------3---------|
Sometimes swirling waters. . . .

E|-----------------------------------------------------------------------------
B|-----------------------------------------------------------------------------
G|--------0--------0----------0--------0----------0--------0--------0--------0-
D|-----2--------2----------2--------2----------------------------0--------0----
A|--2--------2----------3--------3-------------2--------2-----5--------5-------
E|------------------------------------------3--------3-------------------------
Knowing how to swim. . . .

E|-----------------------------------------------------------------------------
B|-----------------------------------------------------------------------------
G|--------0--------0----------0--------0----------0--------0--------0--------0-
D|-----2--------2----------2--------2----------------------------2--------2----
A|--2--------2----------3--------3-------------2--------2-----2--------2-------
E|------------------------------------------3--------2-------------------------
Come the storm. . . .

E|------------------------------------------------------------|
B|------------------------------------------------------------|
G|--------0--------0----------0--------0----------0--------0--|
D|-----2--------2----------2--------2----------0--------0-----|
A|--3--------3----------3--------3----------5--------5--------|
E|------------------------------------------------------------|
Sometimes you're just drifting on the tide

Guitar solo (CUS)
E|---------------------------------------------------------------|
B|------------------15--15------------------------15-15-h17--15--|
G|----------14--16------------------------14--16-----------------|
D|--17--17--------------------17--17--17-------------------------|
A|---------------------------------------------------------------|
E|---------------------------------------------------------------|

E|----------------------------------------------------------------------|
B|-------------15-17-17-17-15-------15-17-17-15-------------------------|
G|-------14-16----------------16-16-------------16-16-p14----14-h16-p14-|
D|-17-17--------------------------------------------------17------------|
A|----------------------------------------------------------------------|
E|----------------------------------------------------------------------|

E|---------------------------------------------------|
B|--------------14-----------------------------------|
G|-------14-h16----16-----------14-h16-14-h16-p14----|
D|-17-17---------------17-17-17-------------------17-|
A|---------------------------------------------------|
E|---------------------------------------------------|

E|-----------------------------------------------------------------------|
B|-----------------15-17-17-17-15----------------------------------------|
G|----------14-h16----------------16-16-14----14-h16-16-h19-p16-14-------|
D|-17-17-17--------------------------------17----------------------17-17-|
A|-----------------------------------------------------------------------|
E|-----------------------------------------------------------------------|

Outro (CUS) play twice
E|-----------10-12-12-10----------------------|
B|--------12-------------12-10----10-12-10----|
G|-12-h14----------------------12----------12-|
D|--------------------------------------------|
A|--------------------------------------------|
E|--------------------------------------------|

E|-----------10-12-12-10-------------------------|
B|--------12-------------12-10----10-12-12-12-10-|
G|-12-h14----------------------12----------------|
D|-----------------------------------------------|
A|-----------------------------------------------|
E|-----------------------------------------------|

E|-----------10-12-12-10----------------------|
B|--------12-------------12-10----10-12-10----|
G|-12-h14----------------------12----------12-|
D|--------------------------------------------|
A|--------------------------------------------|
E|--------------------------------------------|

E|-------------------------------------10-|
B|-12-p10----12-p10----12-p10----10-12----|
G|--------12--------12--------12----------|
D|----------------------------------------|
A|----------------------------------------|
E|----------------------------------------|


======================================================================

"Dive Into Me"                                  

Transcribed By Dave Ballence
Supplied by Tom Cooper

Intro

E|--------0---------------0-------------------0---------------0------------------------|
B|------3---3-----------3---3---------------3---3-----------3---3----------------------|
G|----0---------------0-------0-----------0---------------0-------2--------------------|
D|--2---------------2-------------------2---------------2------------------------------|
A|-------------------------------------------------------------------------------------|
E|-------------------------------------------------------------------------------------|

N.B for parts labeled Intro you can play tab, listen to song.

Em   C    G  x3
Em   C    D

 Play Intro
It was a long hot day        
At the end of the summer
I had a chill in my heart
Like the start of the winter  

Em            C            G
And I didn't know what to wear
Em            C       G
I wasn't sure what to say
Em         C
I was standing alone
G                Em   C    D
At the tail of the river

D         G   G/F#            Em   D
Dive into me, into the raging sea
Em          F#m    G*               Bm            D
Follow your heart, down where it's deep and it's dark

D         Am  Em               C  G
Dive into me, into the healing sea
         Am           Em                 C      D
Put your life into my hands and take the chance

Dive into me

Play Intro
So we loaded up the car
Drove deep into the mountain
Where the river was born
In time's holy fountain

Em                  C            G
And we spoke about how it ran
Em         C G
All the way to the ocean
Em           C
Trusting its path
G             Em    C D
To a natural motion

 

D         G   G/F#            Em   D
Dive into me, into the raging sea
Em          F#m    G*               Bm            D
Follow your heart, down where it's deep and it's dark

D         Am  Em               C  G
Dive into me, into the healing sea
         Am           Em                 C      D
Put your life into my hands and take the chance

Dive into me

Em   Em   C    C

Em   Em   C    C

Em                 C               G
Sometimes swirling waters drag you down
Em             C            G                 D
Knowing how to swim doesn't mean you'll never drown
Em                    C
Come the storm you hold in fear
G         G/F#     Em
Whoever's by your side
C                                        D
Sometimes you're just drifting on the tide

Solo

G    G    G/F# G/F#
Em   Em   D    D   
Em   F#m   G*   C
G    G              

 

 

D         G   G/F#            Em   D
Dive into me, into the raging sea
Em          F#m    G*               Bm            D
Follow your heart, down where it's deep and it's dark

D         Am  Em               C  G
Dive into me, into the healing sea
         Am           Em                 C      D
Put your life into my hands and take the chance

Dive into me

Em   C    G    G x3
Em   C    D    D          (to fade)

 

Chords | E  A  D  G  B  e
-------|--------------------
Am     | x  0  2  2  1  0
Bm     | 2  2  4  4  3  2
C      | x  3  2  0  1  0
D      | x  0  0  2  3  2
Em     | 0  2  2  0  0  0
F#m    | 2  4  4  2  2  2
G      | 3  2  0  0  3  3
G*     | 2  0  0  0  3  3
G/F#   | 3  5  5  4  3  3