Eiledon by Stuart Adamson
From the album "The Seer"

 

Tabbed by Colin Dawson; colin_g_dawson@hotmail.com March 2004
Updated December 2005
All updates or corrections greatfully received:-)

The only live performances of Eiledon I could find are on "Brighton Rock"
and "Wonderland LIve". Actually these are the both the same recording.
On the version on "The Seer" E-Bow is used for several parts. but the
live versions mentioned are played using a plectrum.

The intro in "The Seer" version uses 2 e-Bows, 2 guitars and bass pedals.

 

Intro - with E-Bow and bass pedals
  D       D       D            D               Bm    A     D
E|-------|-------|-----------|----------------|----------|----------|
B|-------|-------|-----------|----------------|----------|----------|
G|-------|----9--|11---9--11-|9h11p9--7--4--2-|4----7--9-|7h9p7-----|
D|-------|-------|-----------|----------------|----------|----------|
A|-------|-------|-----------|----------------|----------|----------|
E|-------|-------|-----------|----------------|----------|----------|

 

  D              D                    A             A  
E|--------------|--------------------|------------|-----------|
B|--------------|--------------------|------------|-----------|
G|16h19--16--19-|16h19p16--14--11--9-|11---14--16-|14---------|
D|--------------|--------------------|------------|-----------|
A|--------------|--------------------|------------|-----------|
E|--------------|--------------------|------------|-----------|

 

  F#m            F#m                  Em           Em
E|--------------|--------------------|------------|-----------|
B|--------------|--------------------|------------|-----------|
G|16h19--16--19-|16h19p16--14--11--9-|9------7--4-|7----------|
D|--------------|--------------------|------------|-----------|
A|--------------|--------------------|------------|-----------|
E|--------------|--------------------|------------|-----------|

 

  G             G                    Bm      A     D
E|-------------|--------------------|-------------|------------|
B|-------------|--------------------|-------------|------------|
G|9h11--9--11--|14--11h14p11--9--7--|4-------7--9-|7h9p7-------|
D|-------------|--------------------|-------------|------------|
A|-------------|--------------------|-------------|------------|
E|-------------|--------------------|-------------|------------|

 

  Verse - with E-bow
  D             D                    Bm      A       D
E|-------------|--------------------|---------------|----------|
B|-------------|--------------------|---------------|----------|
G|11-----9--11-|9h11p9--7---4---2---|4-------7---9--|7h9p7-----|
D|-------------|--------------------|---------------|----------|
A|-------------|--------------------|---------------|----------|
E|-------------|--------------------|---------------|----------|
The eagle soars above the clouds the deer ran in the hills

 

  D               D                    A                A  
E|---------------|--------------------|----------------|-----------|
B|---------------|--------------------|----------------|-----------|
G|16h19--16--19--|16h19p16--14--11--9-|11----14---16---|14---------|
D|---------------|--------------------|----------------|-----------|
A|---------------|--------------------|----------------|-----------|
E|---------------|--------------------|----------------|-----------|
And I may walk in cities Where the    wolf once had his fill 

 

  F#m                 F#m                  Em              Em
E|-------------------|--------------------|---------------|-----------|
B|-------------------|--------------------|---------------|-----------|
G|16h19----16---19---|16h19p16--14--11--9-|9------7---4---|7----------|
D|-------------------|--------------------|---------------|-----------|
A|-------------------|--------------------|---------------|-----------|
E|-------------------|--------------------|---------------|-----------|
And here is strength for us to find To     turn the old to new

 

  G             G                     Bm     A        D   (swap to pletrum)
E|-------------|---------------------|---------------|------------|
B|-------------|---------------------|---------------|----------12|
G|9h11--9--11--|14--11h14p11---9--7--|4------7---9---|7h9p7-------|
D|-------------|---------------------|---------------|------------|
A|-------------|---------------------|---------------|------------|
E|-------------|---------------------|---------------|------------|
And wipe our eyes of misty years, And see the future through

 

Middle bit (harmoniser effect)
  D       Em                          Bm      D       
E|-----------------|-----------------|-----------------|-----------------|
B|15--12-----------|--------------12-|15--12-----------|---------------12|
G|--------14--14-14|14-14-14----- ---|--------11--11-11|11--11-----------|
D|-----------------|-----------------|-----------------|-----------------|
A|-----------------|-----------------|-----------------|-----------------|
E|-----------------|-----------------|-----------------|-----------------|
              I chose this place                 to call my own.

 

  D       Em                          Bm      D
E|-----------------|-----------------|-----------------|-----------------|
B|15--12-----------|--------------12-|15--12-----------|-----------------|
G|--------14--14-14|14-14-14--------|--------11--11-11|11--11----------11|
D|-----------------|-----------------|-----------------|-----------------|
A|-----------------|-----------------|-----------------|-----------------|
E|-----------------|-----------------|-----------------|-----------------|
             The only grace                     I致e ever known

 

  Em      A                           D       A  
E|-----------------|-----------------|-----------------|-----------------|
B|-----------------|-----------------|-----------------|---------------12|
G|14--11-----------|--------------14-|16--14-----------|-----------------|
D|--------12-12-12-|12-12-12-12------|--------14-14-14-|14-14-14---------|
A|-----------------|-----------------|-----------------|-----------------|
E|-----------------|-----------------|-----------------|-----------------|
             I never tire                       of legends grown.  

 

  D       Em                          Bm      D
E|-----------------|-----------------|-----------------|-----------------|
B|15--12-----------|--------------12-|15--12-----------|-----------------|
G|--------14--14-14|14-14-14---------|--------11--11-11|11--11---------11|
D|-----------------|-----------------|-----------------|-----------------|
A|-----------------|-----------------|-----------------|-----------------|
E|-----------------|-----------------|-----------------|-----------------|
              We dream too much   and time has flown

 

  Chorus
  F#m  Bm        Bm           Em      A      A
E|--------------|------------|--------------|------------|
B|19--17--------|------------|17--15--------|------------|
G|--------19-19-|19-19-19----|--------16-16-|16-16-16----|
D|--------------|------------|--------------|------------|
A|--------------|------------|--------------|------------|
E|--------------|------------|--------------|------------|
  Eiledon               I will be there

 

  F#m  Bm        Bm           Em       A     A
E|--------------|------------|--------------|-------------|
B|19--17--------|------------|17--15--------|-------------|
G|--------19-19-|19-19-19----|--------16-16-|16-16-16---9h|
D|--------------|------------|--------------|-------------|
A|--------------|------------|--------------|-------------|
E|--------------|------------|--------------|-------------|
  Eiledon               My dream is there

 

  Guitar solo
  D             D                  Bm      A       D
E|-------------|------------------|---------------|---------------|
B|-------------|------------------|---------------|---------------|
G|11-----9--11-|9h11p9------------|--------7-h-9--|7h9p7-----11s14|
D|-------------|--------12--9-s-7-|9--------------|---------------|
A|-------------|------------------|---------------|---------------|
E|-------------|------------------|---------------|---------------|

 

  D              D                    A             A  
E|--------------|--------------------|-------------|-----------|
B|--------------|--------------------|-------------|-----------|
G|16h19--16--19-|16h19p16s14---------|-----14-h-16-|14------14-|
D|--------------|------------16-s-14-|16-----------|----s16----|
A|--------------|--------------------|-------------|-----------|
E|--------------|--------------------|-------------|-----------|

 

  F#m                 F#m                  Em              Em
E|-------------------|--------------------|---------------|-----------|
B|-------------------|--------------------|---------------|-----------|
G|16h19----16---19---|16h19p16s14---------|---------------|7--------7-|
D|-------------------|-------------16--14-|14-----12-s-9--|------s9---|
A|-------------------|--------------------|---------------|-----------|
E|-------------------|--------------------|---------------|-----------|

 

  G            G                   Bm     A        D
E|------------|-------------------|---------------|------------|
B|------------|-------------------|---------------|----------12|
G|9s11--9--11s|14--11h14p11s9--7--|-------7-h-9---|7h9p7rr-----|
D|------------|-------------------|9--------------|------------|
A|------------|-------------------|---------------|------------|
E|------------|-------------------|---------------|------------|

 

  Middle bit
  D       Em                          Bm      D  
E|-----------------|-----------------|-----------------|-----------------|
B|15--12-----------|--------------12-|15--12-----------|---------------12|
G|--------14--14-14|14-14-14----- ---|--------11--11-11|11--11-----------|
D|-----------------|-----------------|-----------------|-----------------|
A|-----------------|-----------------|-----------------|-----------------|
E|-----------------|-----------------|-----------------|-----------------|
                 So let me fill                      my children痴 hearts

 

  D       Em                          Bm      D  
E|-----------------|-----------------|-----------------|-----------------|
B|15--12-----------|--------------12-|15--12-----------|-----------------|
G|--------14--14-14|14-14-14---------|--------11--11-11|11--11---------11|
D|-----------------|-----------------|-----------------|-----------------|
A|-----------------|-----------------|-----------------|-----------------|
E|-----------------|-----------------|-----------------|-----------------|
               With heroes tales                    and hope it starts

 

  Em      A                           D       A  
E|-----------------|-----------------|-----------------|-----------------|
B|-----------------|-----------------|-----------------|---------------12|
G|14--11-----------|--------------14-|16--14-----------|-----------------|
D|--------12-12-12-|12-12-12-12------|--------14-14-14-|14-14-14---------|
A|-----------------|-----------------|-----------------|-----------------|
E|-----------------|-----------------|-----------------|-----------------|
                  A fire in them                     so deeds are done 

 

  D       Em                          Bm      D  
E|-----------------|-----------------|-----------------|-----------------|
B|15--12-----------|--------------12-|15--12-----------|-----------------|
G|--------14--14-14|14-14-14---------|--------11--11-11|11--11---------11|
D|-----------------|-----------------|-----------------|-----------------|
A|-----------------|-----------------|-----------------|-----------------|
E|-----------------|-----------------|-----------------|-----------------|
               With no vain sighs for moments gone

  Chorus
  F#m  Bm        Bm           Em      A      A
E|--------------|------------|--------------|------------|
B|19--17--------|------------|17--15--------|------------|
G|--------19-19-|19-19-19----|--------16-16-|16-16-16----|
D|--------------|------------|--------------|------------|
A|--------------|------------|--------------|------------|
E|--------------|------------|--------------|------------|
  Eiledon               I will be there

 

  F#m  Bm        Bm           Em       A     A
E|--------------|------------|--------------|------------|
B|19--17--------|------------|17--15--------|------------|
G|--------19-19-|19-19-19----|--------16-16-|16-16-16----|
D|--------------|------------|--------------|------------|
A|--------------|------------|--------------|------------|
E|--------------|------------|--------------|------------|
  Eiledon               My dream is there

 

 

  Guitar Solo 2
  D                     F#m
E|----------17---------|----------17---------|
B|15--19-15------19-15-|15--19-15------19-15-|
G|---------------------|---------------------|
D|---------------------|---------------------|
A|---------------------|---------------------|
E|---------------------|---------------------|

 

  Bm                    Bm7
E|----------14---------|----------14---------|
B|12--15-12------15-12-|12--15-12------15-12-|
G|---------------------|---------------------|
D|---------------------|---------------------|
A|---------------------|---------------------|
E|---------------------|---------------------|

 

  G                     Em
E|----------19---------|----------19---------|
B|17--20-17------20-17-|17--20-17------20-17-|
G|---------------------|---------------------|
D|---------------------|---------------------|
A|---------------------|---------------------|
E|---------------------|---------------------|

 

  F#m                   A
E|----------21---------|----------21---------|
B|19--22-19------22-19-|19--22-19------22-19-|
G|---------------------|---------------------|
D|---------------------|---------------------|
A|---------------------|---------------------|
E|---------------------|---------------------|

 

  (I haven't tabbed the rhythm here - just the main notes;
   listen to the original to hear the rhythm.)
  Bm           G   A            A           D   G
E|22--21--19------|------------|21--19------22-|------------|
B|------------20--|22-22-22-22-|--------22-----|20-20-20-20-|
G|----------------|------------|---------------|------------|
D|----------------|------------|---------------|------------|
A|----------------|------------|---------------|------------|
E|----------------|------------|---------------|------------|
    Eiledon                       Eiledon

  Bm           G   A            A           D   G
E|22--21--19------|------------|21--19------22-|------------|
B|------------20--|22-22-22-22-|--------22-----|20-20-20-20-|
G|----------------|------------|---------------|------------|
D|----------------|------------|---------------|------------|
A|----------------|------------|---------------|------------|
E|----------------|------------|---------------|------------|
    Eiledon                       Eiledon

 

  Middle bit
  D       Em                          Bm      D  
E|-----------------|-----------------|-----------------|-----------------|
B|15--12-----------|--------------12-|15--12-----------|---------------12|
G|--------14--14-14|14-14-14----- ---|--------11--11-11|11--11-----------|
D|-----------------|-----------------|-----------------|-----------------|
A|-----------------|-----------------|-----------------|-----------------|
E|-----------------|-----------------|-----------------|-----------------|
                 So let us soar                      up with the eagles

  D       Em                          Bm      D  
E|-----------------|-----------------|-----------------|-----------------|
B|15--12-----------|--------------12-|15--12-----------|-----------------|
G|--------14--14-14|14-14-14--------|--------11--11-11|11--11----------11|
D|-----------------|-----------------|-----------------|-----------------|
A|-----------------|-----------------|-----------------|-----------------|
E|-----------------|-----------------|-----------------|-----------------|
                 In wild country                      among the deer

  Em      A                           D       A  
E|-----------------|-----------------|-----------------|-----------------|
B|-----------------|-----------------|-----------------|---------------12|
G|14--11-----------|--------------14-|16--14-----------|-----------------|
D|--------12-12-12-|12-12-12-12------|--------14-14-14-|14-14-14---------|
A|-----------------|-----------------|-----------------|-----------------|
E|-----------------|-----------------|-----------------|-----------------|
                And wake the wolf                  in every city

  D       Em                          Bm      D  
E|-----------------|-----------------|-----------------|-----------------|
B|15--12-----------|--------------12-|15--12-----------|-----------------|
G|--------14--14-14|14-14-14---------|--------11--11-11|11--11---------11|
D|-----------------|-----------------|-----------------|-----------------|
A|-----------------|-----------------|-----------------|-----------------|
E|-----------------|-----------------|-----------------|-----------------|
                 And reckoning       is drawing near

 

  Chorus
  F#m  Bm        Bm           Em      A      A
E|--------------|------------|--------------|------------|
B|19--17--------|------------|17--15--------|------------|
G|--------19-19-|19-19-19----|--------16-16-|16-16-16----|
D|--------------|------------|--------------|------------|
A|--------------|------------|--------------|------------|
E|--------------|------------|--------------|------------|
  Eiledon               I will be there

 

  F#m  Bm        Bm           Em       A     A
E|--------------|------------|--------------|------------|
B|19--17--------|------------|17--15--------|------------|
G|--------19-19-|19-19-19----|--------16-16-|16-16-16----|
D|--------------|------------|--------------|------------|
A|--------------|------------|--------------|------------|
E|--------------|------------|--------------|------------|
  Eiledon               My dream is there

 

  F#m  Bm        Bm            (E-bow)
E|--------------|----------------|
B|19--17--------|----------------|
G|--------19-19-|19-19-19------9-|
D|--------------|----------------|
A|--------------|----------------|
E|--------------|----------------|
  Eiledon                 

 

  E-Bow solo
  D             D                    Bm      A       D
E|-------------|--------------------|---------------|----------|
B|-------------|--------------------|---------------|----------|
G|11-----9--11-|9h11p9--7---4---2---|4-------7---9--|7h9p7-----|
D|-------------|--------------------|---------------|----------|
A|-------------|--------------------|---------------|----------|
E|-------------|--------------------|---------------|----------|

 

  D               D                    A                A  
E|---------------|--------------------|----------------|-----------|
B|---------------|--------------------|----------------|-----------|
G|16h19--16--19--|16h19p16--14--11--9-|11----14---16---|14h16p14rr-|
D|---------------|--------------------|----------------|-----------|
A|---------------|--------------------|----------------|-----------|
E|---------------|--------------------|----------------|-----------|

 

  Verse
  F#m                 F#m                  Em              Em
E|-------------------|--------------------|---------------|-----------|
B|-------------------|--------------------|---------------|-----------|
G|16h19----16---19---|16h19p16--14--11--9-|9------7---4---|7----------|
D|-------------------|--------------------|---------------|-----------|
A|-------------------|--------------------|---------------|-----------|
E|-------------------|--------------------|---------------|-----------|
And here is strength for us to find    to  turn the old to new

 

  G             G                     Bm     A        D
E|-------------|---------------------|---------------|------------|
B|-------------|---------------------|---------------|------------|
G|9h11--9--11--|14--11h14p11---9--7--|4------7---9---|7---------9-|
D|-------------|---------------------|---------------|------------|
A|-------------|---------------------|---------------|------------|
E|-------------|---------------------|---------------|------------|
And wipe our eyes of misty years  and see the future through

 

  E-Bow solo
  D             D                    Bm      A       D
E|-------------|--------------------|---------------|----------|
B|-------------|--------------------|---------------|----------|
G|11-----9--11-|9h11p9--7---4---2---|4-------7---9--|7h9p7-----|
D|-------------|--------------------|---------------|----------|
A|-------------|--------------------|---------------|----------|
E|-------------|--------------------|---------------|----------|

 

 

CHORD | E A D G B E
D     | 5 5 7 7 7 5
Bm    | 7 9 9 7 7 7
Bm    | 2 2 4 4 3 2
Bm7   | x 0 4 4 3 2
Bm7   | 2 2 4 2 3 2
A     | 5 7 7 6 5 5
A     | 0 0 2 2 2 0
F#m   | 2 4 4 2 2 2 
Em    | 0 2 2 0 0 0 
G     | 3 5 5 4 3 3