Everything I Need

 

Intro & Verse

E|-------0---------------0----------------2---------------2-------------0------|
B|--------------------------------------------2-------3-------3-----0----------|
G|---2------2--------------2------------2-------2-------2-------2-----2-----2--|
D|-----2------2------4-------4--------4-------------4-------------------------2|
A|-0------------0------5-------5----0-------0-----0---------0-----0-------0----|
E|-----------------------------------------------------------------------------|

 

E|-----------------------------------------------------------------------------|
B|-------------------------2---------------------------------------------------|
G|-----1---4---1-------1-2---2-1-------------2---------------------------------|
D|-------4-------4---------------4-------0-2-----------------------------------|
A|---2-------2-------4-------------5---0---------------------------------------|
E|-2---------------4-----------------0-----------------------------------------|

E-bow
E|-----------------------------------------------------|
B|-----------------------------------------------------|
G|--6-7-h9-7-9-h11-9-11-s13-s14-7-6-7-9-s11-6-7-6-4-2--|
D|-----------------------------------------------------|
A|-----------------------------------------------------|
E|-----------------------------------------------------|

 

======================================================================

Everything I Need

Intro :   A    D/A  E/A  D/A  F#m  Bm7  E    D    D/E  A                    D/A  E/A  D/A  A    D/E  F#m  D    D/E

A        D        D/E E/A  D    D/E  F#m
You've got everything I want
         Bm7        E      D    D/E  A
You've got everything I need
           D  D/E E/A    D/A          A
Maybe we'll go out walking tonight
         D/E         F#m   D    A    D/A  E/A  D
You've got everything I need

I know you would be so warm
I want you to keep from harm
Maybe we'll go out driving tonight
A      E7           A      E    D
Maybe it wouldn't be so wrong

         E           F#m   A    E    D
All the seasons rushing over me
        F#m                E   A    E    D
All the secret wounds that bleed
         E           F#m   A    E    D
All the seasons rushing over me
          E               F#m   D  A  D/A  E/A  D/A  F#m  Bm7  E  D
Take me further from my need

For all the places we might go
Places I will never know
I would trade them all for an empty room
With you and I left there alone

All the seasons rushing over me
All the secret wounds that bleed
All the seasons rushing over me
Take me further from my need

CHORD | E A D G B e
A     | X 0 2 2 2 0
Bm7   | X 2 4 2 3 2
D     | X X 0 2 3 2
D/A   | X 0 0 2 3 2
E     | 0 2 2 1 0 0
E/A   | X 0 2 1 0 0
F#m   | 2 4 4 2 2 2