Harvest Home

Intro Slide into 1st note
E|------------------------------------------11-12-------------------|
B|-s9-10-9-12-9-10-9--9-10-9----9----9-10-9-------12-9-9-10-9-------|
G|---------------------------11---9---------------------------11-9-9|
D|------------------------------------------------------------------|
A|------------------------------------------------------------------|
E|------------------------------------------------------------------|

 

E|--------------------------------------------|
B|-------12-9----------12-9--------12-9-------|
G|-9---9------11-9---9-------9---9------11-9--|
D|---9-------------9-----------9--------------|
A|--------------------------------------------|
E|--------------------------------------------|
Just as you sow you shall reap. . . .

 

E|--------------------------------------------------------------------|
B|-9-12-9-9-9--9--9-12-9------------9-12-9---------9-12-9-------------|
G|-----------------------11-11---11--------9-9---9--------11-11---11--|
D|-----------9-----------------9---------------7----------------9-----|
A|--------------------------------------------------------------------|
E|--------------------------------------------------------------------|
In a harvest home. . . .

E|--------------------------------------------------------------|
B|-9-12-9-12-9---12-9---12-9-------------9------9------9-9-12-9-|
G|-------------9------9------11-----9-11---9-11---9-11----------|
D|------------------------------9-------------------------------|
A|--------------------------------------------------------------|
E|--------------------------------------------------------------|

E|--------------------------------14-16-17-19-21-19-17-16-h17-p16------------------------|
B|-----------------------14-16-17---------------------------------17----17---------------|
G|--------------13-14-16---------------------------------------------16------------------|
D|-------14-16---------------------------------------------------------------------------|
A|-14-16---------------------------------------------------------------------------------|
E|---------------------------------------------------------------------------------------|

Instrumental break
E|--------------------------------------------------------|
B|--------------0--2p0--------0--2p0--------0--2p0--------| 
G|--1--1--1--1----------1-------------1-------------1-----| 
D|--2--2--2--2-------------2-------------2-------------2--|
A|--------------------------------------------------------|
E|--------------------------------------------------------|

E|----------------------------0--4p0--------0--4p0--------|
B|--------------0--2p0------------------------------------| 
G|--1--1--1--1----------1-------------1-------------1-----| 
D|--2--2--2--2-------------2-------------2-------------2--|
A|--------------------------------------------------------|
E|--------------------------------------------------------|

 

E|------------------------------------------------------------------|
B|------------------------------------------------------------------|
G|-4s9-8-7h8p7-------------------4s9-8-7h8p7------------------------|
D|-------------9----------6-9----------------9---------6------------|
A|----------------7-7-9-7----------------------7-7-9-7---7----------|
E|------------------------------------------------------------------|



======================================================================

Harvest Home

Intro :    E

E
Who saw the fences falling       Who broke the ploughman's bread
Who heard the winter calling     Who wore the tailor's thread

How many sheaves were counted    How did the carriage shine
How many thoughts were doubted   How did the landlord dine

Just as you sow you shall reap   Just as you sow you shall reap

Who led the mayday feasting      Who saw the harvest home
Who left the future wasting      Who watched the families go

See where the bowls are empty    See where the arms reach
See where the butter melted      See where the altars creak

Just as you sow you shall reap   Just as you sow you shall reap

                B    E    A    E    B   
In a harvest home______          yoh___________

E    AM7  E    C#m  AM7

Where were the days of promise   Where were the gifts divine
Where were the heroes honest          Where was the summer wine

Watch how the waves must shatter Watch how the shore divides
Watch how the nets will tatter   Watch Canute and his bride

Just as you sow you shall reap   Just as you sow you shall reap

In a harvest home                     In a harvest home

CHORD | E A D G B e
AM7   | X 0 2 1 2 0
B     | X X 4 4 4 1
C#m   | 4 4 6 6 5 4
E     | 0 3 3 1 0 0