I'm Not Ashamed

Intro
E--------------------------------------------------------------------------------------|
B----------------------------------------------------------8--5------------------------|
G----------5-h7--5--7-s9--7--5-----9--7-----------5-h7--5--------7--5-----5--9-s7-p5---|
D-5--5-h7-----------------------7-----------5-h7-----------------------7--------------7|
A--------------------------------------------------------------------------------------|
E--------------------------------------------------------------------------------------|

E--------------------------------------------------------------------------------------|
B----------------------------------------------------------------------------8---------|
G-------5-h7--5--7-s9--7--5-----9--7-----------5-h7--9--7-h9-p7--5-----5--9-----7-h9-p7|
D-5-h7-----------------------7-----------5-h7-----------------------7------------------|
A--------------------------------------------------------------------------------------|
E--------------------------------------------------------------------------------------|

           Drums
E--------------------------------------------------------------------------------------|
B-----------------------------------10--8----6--6-5-6-5-6-5----------------------------|
Gs5-----------------9--9--7-s5------------------------------5--------------------------|
D----7--5------------------------------------------------------3-3-2-3-2-3-2-----------|
A----------------------------------------------------------------------------3---------|
E--------------------------------------------------------------------------------------|

E--------------------------------------------------------------------------------------|
B---------------10-s13--10--8----6--6-5-6-5-6-5----------------------------------------|
G-9--9--7-s5------------------------------------5--------------------------------------|
D--------------------------------------------------3-3-2-3-2-3-2-----------------------|
A----------------------------------------------------------------3---------------------|
E--------------------------------------------------------------------------------------|

C
We all make our plans      We all have our choices
G
Try on different faces     Talk in other voices
C
I said a lot of things     That never let me sleep
G
Made promises I really meant to keep

      C         G         Dm                  C       G       Dm
I'm not ashamed of the things I've done     I took the blame when I could have run
      C         G         Dm               C         G        Dm
I'm not ashamed of the things I've done     I know I stayed when I could have gone
Bb              C       G
I don't expect it to be easy for me

We're tied together by a simple little pledge
Before we know the trust it takes to walk up to that edge
We build a house cards           Where the wind has always blown
We build our little garden On a bed of sand and stones

A                   Dm
It took too long for me to be who I am
Bb                    G
Maybe that's enough for me to be it when I can

I'm not ashamed of the things I've done     I took the blame when I could have run
I'm not ashamed of the things I've done     I know I stayed when I could have gone

 

Solo
E-----------------------------------------------------------------16--19--19--14--14---|
B-----------10--8----6--6-5-6-5-6-5-----------------------16-s13-----------------------|
G-9-s5------------------------------5--------------------------------------------------|
D--------------------------------------3-3-2-3-2-3-2-----------------------------------|
A----------------------------------------------------3---------------------------------|
E--------------------------------------------------------------------------------------|

E-13--13-12-13-12-13-12----------------------------------------------------------------|
B-----------------------13-------------------------------------------------------------|
G---------------------------10-10-9-10-12-10-9-----------------------------------------|
D----------------------------------------------10--------------------------------------|
A--------------------------------------------------------------------------------------|
E--------------------------------------------------------------------------------------|

 

Our little houses where the wind has always blown
Our little garden on a bed of sand and stones

We drift along in quiet waters on the tide  We rise and fall in rhythm almost satisfied
We let ourselves be drawn, let ourselves be used
I only ever wanted to be taken in by you

It took too long for me to be who I am
Maybe that's enough for me to be it when I can

CHORD | E A D G B e
A     | 9 12119 109
C     | 8 8 9 10108
G     | 7 109 7 8 7
Dm    | 5 6 7 7 5 5
Bb    | 6 6 7 8 8 6