King Of Emotion



Intro & Chorus
    C  G      D  G           C  G          D  G      C  Em       D  C
E|--------------------------------------------------------------------------------------|
B|--------------------------------------------------------------------------------------|
G|--5--4--4--4----7--4--4--4----5--4--4--4----7--4--4--4----5--0--0--0----7--5--5--5----|
D|--5--5--5--5----7--5--5--5----5--5--5--5----7--5--5--5----5--2--2--2----7--5--5--5----|
A|--3--5--5--5----5--5--5--5----3--5--5--5----5--5--5--5----3--2--2--2----5--3--3--3----|
E|--3--3--3--3----5--3--3--3----3--3--3--3----5--3--3--3----3--0--0--0----5--3--3--3----|



    C  Em     D  G         Pre Chorus Em                         Bm     D
E|--------------------------------------------------------------------------------------|
B|--------------------------------------------------------------------------------------|
G|--5--0--0--0----7--4--4-------------0-------------------------------------4-------0---|
D|--5--2--2--2----7--5--5-------------2-------------------------------------4-------4---|
A|--3--2--2--2----5--5--5-------------2-------------------------------------2-------5---|
E|--3--0--0--0----5--3--3-------------0-------------------------------------2-------2---|
                             I wait to find the things. . . .



Solo    <=========== E-Bow ===========>
E|--------------------------------------------------------------------------------------|
B|-------------------------------------------------9-9-s12----16-16-s12-----------------|
G|--16--17--19--16--12--14--9--7-------------------9-9-s12----16-16-s12----9-9-12-14-12-|
D|----------------------------------9-p7-----------9-9-s12----16-16-s12----9-9-12-14-12-|
A|---------------------------------------h9-p7------------------------------------------|
E|--------------------------------------------------------------------------------------|



                                            <== A few times ======>
E|--------------14--15--17--19--17--15----------------------17-p15------17-p15-----------|
B|--12--14--12--------------------------17--15--17--15-------------h17---------h17-------|
G|---------------------------------------------------------------------------------------|
D|---------------------------------------------------------------------------------------|
A|---------------------------------------------------------------------------------------|
E|---------------------------------------------------------------------------------------|



======================================================================



King Of Emotion



Intro :    C G  D G  C G  D G  C Em D C  Em   D Em



Esus4
I know where all that time has gone  
E7sus4
Blown and drifted listening to an august night
Asus2                   Am       G       C       D
I see where I was wrong but how could I know that you were right
            Esus4
When you said I would need something wild   something crazy to carry me
Asus2
I would see you naked and weary
       Am          G           C      D
But with pride in your eyes that put shame in me
Em                      Bm       D
I wait to find the things I need but I know



C    G        D    G
I want that love king of emotion
C      G                 D     G
Stronger than you and so much deeper than me
C Em            D       C
I know that love is king of emotion
      Em           D       G
King of emotion take a walk with me
I know that love is king of emotion
King of emotion take a walk with me



You know where all that time has gone
Grown up and left washed out like an April day
See all those pretty little things you knew
Worn and faded they lie cast away
You said you would need something wild
Something special to carry you
You would see me naked and weary
But with pride in my eyes that put shame in you
Until you find the things you need I know



I want that love king of emotion
Stronger than you and so much deeper than me
I know that love is king of emotion
King of emotion take a walk with me
I know that love is king of emotion
King of emotion take a walk with me



Until we find the things we need      I know



I want that love king of emotion
Stronger than you and so much deeper than me
I know that love is king of emotion
King of emotion take a walk with me                         (repeat x2)



CHORD | E A D G B e
Am    | X 0 2 2 1 0
Bm    | X 2 4 4 3 1
C     | X 3 2 0 1 0
D     | X X 0 2 3 2
Em    | 0 2 2 0 0 0
Esus4 | 0 2 2 2 0 0
G     | 3 2 0 0 2 2