Learing To Row

Intro
E|---------------------------------------------------------------------------------------|
B|---------------------------------------------------------------------------------------|
G|-------------------------4--------------------------------------4----------------------|
D|-------------0--------0-----------------------------0--------0-------------------------|
A|----------3--------3--------3--------------------3--------3--------3-------------------|
E|---5--p0--------0-------------------------5--p0--------0-------------------------------|

E|---------------------------------------------------------------------------------------|
B|---------------------------------------------------------------------------------------|
G|---------------------------------------------------------------------------------------|
D|-------------------------------2--p0--2--s4----4--s2--0----0--h2----0------------------|
A|--3--3--3--s5-----------1--p0------------------------------------------3---------------|
E|---------------------------------------------------------------------------------------|

           Am        G           C          D         
You Could smell the sea on his working clothes
         Am          G           D
I'd take his rough hands and I wouldn't let go
        Am           G            C        D
Son if ships don't sail then our table is bare
        Am  G   C        D
And I'm not alone out there

        Am      G         C            D
Got to grow up fast you don't have a choice
          Am       G                D
When the table's bare and there's no father's voice
          Am         G             C        D
Smell his working clothes on the cold salt air
        Am  G   C        D
And I'm not alone out there
       Am  G   C        D
No I'm not alone out there

        C       G           D     Em
We are cast adrift on an endless storm
        C          G              D
Many dreams will come and wash overboard
        Am         G            C       D
But we will not mourn what we have not lost
         Am   G   C            D
We will learn to row with the oars
             Am   G   C   D    Am   G   D
We have go...

         Am        G          C      D
For the waves may die but the sea remains
     Am      G         D
Nets disappear in the deep again
Am       G         C      D
Lifting life for all to share
          Am  G   C        D
And we're not alone out there
        Am G    C        D
We are not alone out there

        C       G           D     Em
We are cast adrift on an endless storm
        C          G              D
Many dreams will come and wash overboard
        Am         G            C       D
But we will not mourn what we have not lost
         Am   G   C            D
We will learn to row with the oars
        C       G           D     Em
We are cast adrift on an endless storm
        C          G              D
Many dreams will come and wash overboard
        Am         G            C       D
But we will not mourn what we have not lost
         Am   G   C            D
We will learn to row with the oars
             Am   G   C   D    Am   G   D
We have go...