Look Away

Drum intro
E--------------------------------------------------------------7-----------7-----------|
B-------------7--7-s9----------------9----------------------9-----9--7-s9-----9--7-s9--|
G-4-s6--6-s9-------------4-s6--6-s9-----9-s6----4-s6--6-s9-----------------------------|
D--------------------------------------------------------------------------------------|
A--------------------------------------------------------------------------------------|
E--------------------------------------------------------------------------------------|

E--------------------12--14--14-s16--------------12--16--12----------16--12--16--19--14|
B-7----------12-s14----------------------12-s14--------------14--14--------------------|
G----9-s6------------------------------------------------------------------------------|
D--------------------------------------------------------------------------------------|
A--------------------------------------------------------------------------------------|
E--------------------------------------------------------------------------------------|

Verse - Stuart plays chords & Bruce plays the following
E------------------12--9--7--9------------------------12--9--7-------------------------|
B------------------12--9--7--9------------------------12--9--7-------------------------|
G--------------------------------------------------------------------------------------|
D--------------------------------------------------------------------------------------|
A--------------------------------------------------------------------------------------|
E--------------------------------------------------------------------------------------|
  This time we run               This time we hide

E---------------------12--9--7--9-------------------12--9--7--4------------------------|
B---------------------12--9--7--9-------------------12--9--7--5------------------------|
G--------------------------------------------------------------------------------------|
D--------------------------------------------------------------------------------------|
A--------------------------------------------------------------------------------------|
E--------------------------------------------------------------------------------------|
  This time we draw on all the fire we have inside

E--------------------------------------------------------------------------------------|
B---------------------------------------------------------5------5------5--7-p5---5----|
G---------------4------4------4--6-p4---4------------4-h6---4-h6---4-h6---------6------|
D----------4-h6---4-h6---4-h6---------6------------------------------------------------|
A--------------------------------------------------------------------------------------|
E--------------------------------------------------------------------------------------|
We need some time                     To find a place

E------------------------16--14--16--12------------------------------------------------|
B---------12--9--17--14----------------------------------------------------------------|
G-13--11-------------------------------------------------------------------------------|
D--------------------------------------------------------------------------------------|
A--------------------------------------------------------------------------------------|
E--------------------------------------------------------------------------------------|
  Where I can wipe away . . . .

Chorus                <===========================  X2 ===================================>
E--------------------------------------------------------------------------------------|
B--------------------------------------------------------------------------------------|
G-------------------6--6--6--6--4--6--6--4--4--6--6-----4--4--4--4--2--4--4--2--2--4--4|
D-------------------6--6--6--6--4--6--6--4--4--6--6-----4--4--4--4--2--4--4--2--2--4--4|
A--------------------------------------------------------------------------------------|
E--------------------------------------------------------------------------------------|
 Look away, look away

E--------------------------------------------------------------------------------------|
B--------------------------------------------------------------------------------------|
G-6--4--2--3--1------------------------------------------------------------------------|
D-6--4--2--4--2------------------------------------------------------------------------|
A-4--2--0--4--2------------------------------------------------------------------------|
E--------------------------------------------------------------------------------------|
  Look away, look away from the love that I hide . . .
Solo is a variation on the intro


======================================================================

Look Away

INTRO:     A5   B5   E5  
           A5   B5   C#m 
           A5   B5   E5   A5   B5   C#m 
           A5   B5   C#m 
           E5   C#m  B5   E5

           C#m                   E
This time we run      This time we hide
           C#m                        E
This time we draw on all the fire we have inside
     B5   A5  B5              C#m
We need some time          To find a place
E5   B5   C#5        B5              E
Where I can wipe away the madness from your face
    
Our name is out            Our name is known
Our name is everywhere but who knows where we've flown
I never meant              To kill a man
But I will show you have to live like no-one ever can

N.C.    C#m                         B5
Look away, look away  Hide your eyes from the land where i lie cold
        C#m                       B5
Look away, look away  From the lies in the stories that were told
         C#5            B5      A5          F#5E5
Look away, look away  From the love that I hide way down deep in my soul

I met you wild             In a snowed up town
I was waiting tied and bound to be sent down
Then I broke loose         You weren't around
So I raised banks and trains until I tracked you down

You followed me            When I said no
You lay with me when there was nowhere safe to go
We made some friends       But now it's done
I always knew that we would never catch the sun

Look away, look away  Hide your eyes from the land where I lie cold
Look away, look away  From the lies in the stories that were told
Look away, look away  From the love that I hide way down deep in my soul

Look away, look away  Hide your eyes from the land where I lie cold
Look away, look away  From the lies in the stories that were told
Look away, look away  From the love that I hide way down deep in my soul

CHORD | E A D G B E
------+-----------
A     | x 0 2 2 2 0
A5    | x 0 2 2 x x
B5    | x 2 4 4 x x
C#m   | 4 4 6 6 5 4
C5    | x 4 6 6 x x
E     | 4 7 6 4 5 4
E5    | x 7 9 9 x x
F#m   | 2 4 4 2 2 2
F#5   | 2 4 4 x x x