Magic In Your Eyes

Intro & Verse
E|------0------2------0---0------0------2------0---0------0------2------0---0--|
B|----3------3------3----------3------3------3----------3------3------3--------|
G|--2------2------2----------2------2------2----------2------2------2----------|
D|----------------------0------------------------0------------------------0----|
A|-----------------------------------------------------------------------------|
E|-----------------------------------------------------------------------------|

E|------------------3-2------------------3-2-----------------------------------|
B|------3------3-------------3------3------------------------------------------|
G|----2------2-------------2------2--------------------------------------------|
D|--3------2------0------3------2------0---------------------------------------|
A|-----------------------------------------------------------------------------|
E|-----------------------------------------------------------------------------|

Chorus 1
A    Bm   D    G
D    A    Bm   G
D    A    D

Chorus 2
A    Bm   D    G
Bm   D    F#m  G
A    Bm   D    G
D    A    Bm   G
D    A    D

Chorus 3
A    Bm   D    G
Bm   D    F#m  G
A    Bm   D    G
D    A    Bm   G
D    A    Em   F#m  G
D    A    Bm   G
D    A    Em   F#m  G
D    A    D    G    D    A    D