Never Take Your Place

Intro - play twice ending 1 first time, ending 2 second time (for the ending also)
E---------------------------------------------------------------------------------------
B-9----------------14--12----------------------14--12------------------14--12-----------
G-9----11------11----------14-p11--11------11----------14--11------11----------14--p11--
D-9--------14--------------------------14----------------------14-----------------------
A---------------------------------------------------------------------------------------
E---------------------------------------------------------------------------------------

ending 1
E|--12--12-p14------| E|-----------------|
B|--------------14--| B|-----------------|
G|------------------| G|--9--h11--9--11--|
D|------------------| D|-----------------|
A|------------------| A|-----------------|
E|------------------| E|-----------------|

E|-------------------------------------------------------------------------------------|
B|---------10--play--------------------------------------------------------------------|
G|---------11--through---------------------------------------------------11------9-----|
D|--11-11--11--out-----------------------------------------------------------11--------|
A|-------------------------------------------------------------------------------------|
E|-------------------------------------------------------------------------------------|
Last night I dreamed I saw you there and I dreamed your eyes were blue

E|-------------------------------------------------------------------------------------|
B|---------10--play---------------------------------------------------10---------------|
G|---------11--through--------------------------------------6-s9--11------11-----------|
D|--11-11--11--out---------------------------------------------------------------------|
A|-------------------------------------------------------------------------------------|
E|-------------------------------------------------------------------------------------|
And someone's hand upon your hair I dreamed I saw that too

something like
E|---------------------------------|
B|---------------------------------| play
G|--9--11--11-11-11--9--11--11-11--| through-
D|---------------------------------| out (maybe with palm mute)
A|---------------------------------|
E|---------------------------------|
And not a word that I could say or thing that I could do

E|-----------------------|       E|------------------------------|
B|-----------------------|       B|----------------10--9---------|
G|-----------------------|       G|------9--11--9---------11--9--|
D|--9-s11--9-------------|       D|--11--------------------------|
A|------------12--8-s10--|       A|------------------------------|
E|-----------------------|       E|------------------------------|
Whip your dogs away from here....     Push away boys, push away boys

 

break

E|------------------14--12------------------------------|
B|--------------14----------14--12------12--12-p14------|
G|------11--14----------------------14--------------11--|
D|--14--------------------------------------------------|
A|------------------------------------------------------|
E|------------------------------------------------------|

E|------------------14--12------------------------------|
B|--------------14----------14--12------12--------------|
G|------11--14----------------------14------------------|
D|--14--------------------------------------------------|
A|------------------------------------------------------|
E|------------------------------------------------------|

E|------------------14--12------------------------------|
B|--------------14----------14--12------12--12-p14------|
G|------11--14----------------------14--------------11--|
D|--14--------------------------------------------------|
A|------------------------------------------------------|
E|------------------------------------------------------|

E|------------------------------------------|
B|--------------12--14--12------------------|
G|------11--14--------------14--11------11--|
D|--14------------------------------14------|
A|------------------------------------------|
E|------------------------------------------|


======================================================================

Never Take Your Place - transcribed by Tom Cooper

Intro:     E    F#m  E    F#m  E    F#m  E   
E    F#m  E    F#m  E    F#m  A    F#m

F#m
Last night I dreamed I saw you there and I dreamed your eyes are blue
                                                       E    F#m
And someone's hand upon your hair I dreamed I saw that too

 

    F#m   A         E       F#m    A                  C#m
And not a word that I could say or thing that I could do
      F#m  A        E       F#m    D              E
Would ever make you look my way or let me look on you

 

Bm             F#m                A                              E
Whip your dogs away from here    there's no more oil and there's no more beer
Bm             F#m                A                      E
Whip your dogs away from here    there's no more left to fear

D                          F#m
Push away boys             Push away boys
A                      D
It's time we left this place
    F#m             A            D     E         F#m
And all the gold in Africa could never take your place

E    F#m  E    F#m  E    F#m  E   
E    F#m  E    F#m  E    F#m  A    F#m

Some fool is hung around your neck and who around your waist
Or was all before we met and in some other place

Or was it just a ghost story lost in another time
Or someone I forgot to be who changed their dream for mine

Whip your dogs away from here    there's no more oil and there's no more beer
Whip your dogs away from here    there's no more left to fear

Push away boys             push away boys
It's time we left this place
And all the gold in Africa could never take your place

 

Last night I dreamed I saw you there and I dreamed your eyes are blue
And someone's hand upon your hair I dreamed I saw that too

Whip your dogs away from here    there's no more oil and there's no more beer
Whip your dogs away from here    there's no more left to fear

Push away boys             Push away boys
It's time we left this place
And all the gold in Africa could never take your place

Push away boys             Push away boys
It's time we left this place
And all the gold of Africa could never take your place
And all the gold of Africa could never take your place

CHORD |  E  A  D  G  B  E
------+-----------------
A     |  X 12 11  9 10  X
Bm    |  X  9  9  7  7  X
C#m   |  X 11 11  9  9  X
D     |  X  5  7  7  7  X
E     |  X  7  9  9  9  X
F#m   |  X  9 11 11 10  X