Private Battlefield Stuart Adamson and Marcus Hummon

I asked the person who transcribed Loserville for me to do this for me -Gaz

If a '+' sign appears after a note then that note is tied to (held on to) the next note.  


          Dm                        F


                E|------|-10+-----10-12-10-12-10--|------------------------|
                B|-10-13|-----------------------13|-13-10+10+-10-8-8-10-8--|
                G|------|-------------------------|----------------------10|
Acoustic Guitar D|------|-------------------------|------------------------|
                A|------|-------------------------|------------------------|
                E|------|-------------------------|------------------------|


    C                      Bb                     Gm  



E|-----------------------|----------------------|--------------------------|
B|-8+------8-10-8-10-8---|----------------------|--------------------------|
G|---------------------10|--------------------10|-10-12+12----12-14-14-12--|
D|-----------------------|-10-12+12------10-12--|------------------------15|
A|-----------------------|----------------------|--------------------------|
E|-----------------------|----------------------|--------------------------|


   C                         Dm  



E|-------------------------|-------------------||------------------|
B|-------------------------|-------------------||-------------10-13|
G|--------------------10-12|-12-10-------------||------------------|
D|-12+-----12-10-10-12-----|------12-----------||------------------|
A|-------------------------|-------------------||------------------|
E|-------------------------|-------------------||------------------|


   Dm                        F                     C  



E|-10+-----10-12-10-12-10--|---------------------|-----------------------|
B|-----------------------13|-13-10+10+-10-8-10-8-|-8+------8-8-10-10-8---|
G|-------------------------|---------------------|--------------------10+|
D|-------------------------|---------------------|-----------------------|
A|-------------------------|---------------------|-----------------------|
E|-------------------------|---------------------|-----------------------|


   Bb                       Gm  



E|------------------------|------------------------|
B|------------------------|------------------------|
G|-10-------------------10|-10-12+12----12-14-12-10|
D|-------10-12+12--10-12--|------------------------|
A|------------------------|------------------------|
E|------------------------|------------------------|


   C                               Dm  


E|-------------------------------|--------------------------12-13-12|
B|-------------------------------|-10-11-13-11-10-------------------|
G|-10-12-12-10-----------10-12-10|---------------12-12-12-10--------|
D|------------12-10-10-12--------|----------------------------------|
A|-------------------------------|----------------------------------|
E|-------------------------------|----------------------------------|


   C                                Dm  



E|-10-12-10-----------------------|--------10-12-12-10--10-12-10--|
B|---------13-11-10-11-10---------|---10-13-----------13--------13|
G|-----------------------12-10----|-------------------------------|
D|--------------------------------|-------------------------------|
A|--------------------------------|-------------------------------|
E|--------------------------------|-------------------------------|


   F                     C


E|---------------------|-10----10-10-------------|------------------------|
B|-10----10-10----10-13|------------13-13-10-----|------------------------|
G|---------------------|--------------------12-12|-10-12-10-----------10--|
D|---------------------|-------------------------|---------------10-12----|
A|---------------------|-------------------------|------------------------|
E|---------------------|-------------------------|------------------------|


   Gm                        C



E|-------------------------|-------------------|
B|-------------------------|-------------------|
G|-10-12+12--12-14-12-10-10|-------------------|
D|-------------------------|-10-12+12----------|
A|-------------------------|-------------------|
E|-------------------------|-------------------|