See You

Intro

E|--------------------------------------------------------------------|
B|------------8-------------------8-10-8----10--10-10-10----8-8-8-8---|
G|--------7-9---9-7-----------7-9-------------------------------------|
D|----7-9-----------------7-9-----------------------------------------|
A|-10------------------10---------------------------------------------|
E|--------------------------------------------------------------------|

E|----------------------------|
B|-8-8-8-8--------------------|
G|----------7-7-7-7-7-7-h9-7--|
D|----------------------------|
A|----------------------------|
E|----------------------------|

Verse
G    Bm   Em   G    C    Bm   Am
G    Bm   Em   G    C    D    G

Chorus
Em   D    C   
G    Bm   C    Am   C    D    G

Solo
E|--------------------------------------------------------------------|
B|--------------------------------------------------------------------|
G|-----7-------5------7-------5-----0-4--0-4-0-4-0-4-5-4-0------------|
D|---9-------7------9---9---7-----0------------------------0----------|
A|-9-----9-7------9-------7-------------------------------------------|
E|--------------------------------------------------------------------|

E|--------------------------------------------------------------------|
B|--------------------------------------------------------------------|
G|-----7-------5-----7-------5----7-s11--11h12p11p9-11--12-11---------|
D|---9-------7-----9---9---7----0-----------------------------12------|
A|-9-----9-7-----9-------7---------------------------------------12---|
E|--------------------------------------------------------------------|