Send You

Intro
E|------------------------------------------------------------12-15-12---------|
B|-15-12-u13-d12----12----12-u13-d12-15-12-u13-d12---------------------h15-15--|
G|---------------14----14--------------------------12-h14-p12------------------|
D|-----------------------------------------------------------------------------|
A|-----------------------------------------------------------------------------|
E|-----------------------------------------------------------------------------|

E|-----------------------------------------------------------------------------|
B|----12----12-u13-d12-15-12-u13-d12-------------------------------------------|
G|-14----14--------------------------12-h14-p12--------------------------------|
D|----------------------------------------------12-h14-p12---------------------|
A|-----------------------------------------------------------------------------|
E|-----------------------------------------------------------------------------|

Verse
E|-------------------------------------------------------------|
B|-------------------------------------------------------------|
G|--------0-----0------0-----0----------0-----0------0------0--|
D|-----12-----8-----10-----5---------12-----8-----10-----10----|
A|--10------6-----8------3--------10------6-----8------8-------|
E|-------------------------------------------------------------|
There's a place. . .

Pre-chorus
E|---------------------------------------------------|
B|--------------------12----------------------12-----|
G|-----12-14-12----12----12----12-14-12----12----12--|
D|--12----------12----------12----------12-----------|
A|---------------------------------------------------|
E|---------------------------------------------------|
Hey kid. . . .

E|---------------------------------------------------|
B|-14-12-------------------14-12---------------------|
G|-------14-12-14-12-------------14-12-14-12---------|
D|-------------------14-12-------------------14-12---|
A|---------------------------------------------------|
E|---------------------------------------------------|

Chorus
E|-------------------------------------------------|
B|-------------------------------------------------|
G|-9-7------------9-7---------9-7-------------9-7--|
D|-9-7-7-h9-p7-s5-9-7-----7-9-9-7--7-h9-p7-s5-9-7--|
A|--------------------10---------------------------|
E|-------------------------------------------------|

E|---------------------------------------------------------------|
B|-------8-------------------------------------------------------|
G|---------7-h9-7---------------9-7---------9-7-------------9-7--|
D|-----7----------7--7-h9-p7-s5-9-7-----7-9-9-7--7-h9-p7-s5-9-7--|
A|-7-9------------------------------10---------------------------|
E|---------------------------------------------------------------|

Break
E|------------------------------------------------|
B|------------------------------------------------|
G|-0-7-0-3-0-5-0-10-0-7-0-7-0-3-0-5-5-h7-p5-3-p0--|
D|------------------------------------------------|
A|------------------------------------------------|
E|------------------------------------------------|

E|------------------------------------------------------------|
B|--------------------------------15-13-------15-13-----------|
G|-0-7-0-3-0-5-0-10-0-7-0-12-0-15-------15-12-------15-12-15--|
D|------------------------------------------------------------|
A|------------------------------------------------------------|
E|------------------------------------------------------------|



======================================================================

Send You

Intro G5   F#5  F5   E5   G5   F#5  F5   E5  
G5   F#5  F5   E5   G5   F#5  F5   E5

Verse
G5       Eb5        F5       C5       G5         Eb5  F5
There's a place where all roads end         A place where we can meet again

G5   Eb5  F5   C5                   G5       Eb5    F5
If things begin to end                      I hope that I can make amends

Pre-Chorus
G5   F#5      E5     D5        C5    A5   C5   D5
Hey kid there's nothing wrong with you,     there's nothing wrong

G5   F#5  E5     D5     C5    A5   C5   D5
Hey kid the circus comes to town,     but must move on

Chorus
C5   E5   D5   G5                   C5   E5   D5   G5
I will send you a lullaby             You may not weep, you may not cry
C5   E5   D5   G5                    C5   E5   D5   G5
What else am I gonna do                     To keep this world from hurting you

C5   E5   D5   G5                    C5   F#5  Eb5  D5   G5
I will send you a lullaby             You may not weep, you may not cry

C5   E5   D5   G5                    C5   E5   D5   G5
What else am I gonna do                     To keep this world from hurting you