Simple Man

Intro
E|---------------------------------------------------------------------------------------|
B|---------------------------------------------------------------------------------------|
G|---------------------------------------------------------------------------------------|
D|---------------------------------------------------------------------------------------|
A|---------------------------5--7--7-p5--3-----------------------------------------------|
E|--0--b3--5--5--5-h7--5--3--------------------0--0--3--5----3--0------------------------|

E|---------------------------------------------------------------------------------------|
B|---------------------------------------------------------------------------------------|
G|---------------------------------------------------------------------------------------|
D|-------------------------------------------------7-p5----------------------------------|
A|---------------------------5--7--7-p5--3----7----------7--7-p5-----7-------------------|
E|--0--b3--5--5--5-h7--5--3---------------------------------------7----------------------|

Verse 1
             Am                    Em
I'm a simple man, I want a simple life
                 Am                       Em
I want a paid up home, I want a faithful wife
                   C                Em
I don't need much money to keep me free
               Am C           Em
Just need the love of you for me


Chorus
             Am                 C
I'm a simple man, had a simple plan
                     Em
I got a complicated life


E|---------------------------------------------------------------------------------------|
B|---------------------------------------------------------------------------------------|
G|---------------------------------------------------------------------------------------|
D|---------------------------------------------------------------------------------------|
A|---------------------------5--7--7-p5--3-----------------------------------------------|
E|--0--b3--5--5--5-h7--5--3--------------------0--0--3--5----3--0------------------------|


Verse 2
              Am              Em
Ain't got no time to call my own
            Am            Em
I'm wearing out my telephone
              C                Em
I hear the whispers behind my back
            Am C                  Em
I'm trying hard, but things look black


Chorus
              Am                C
I'm a simple man, had a simple plan
                     Em
I got a complicated life
 C                   G
Sometimes when you smile
     D                    Em
It makes the whole thing seem worthwhile
 C                   G
Sometimes when you smile
     D                  Am
It leads me down that final mile
                    C                      Em
That lets a simple man lead a complicated life


Solo
E|---------------------------------------------------------------------------------------|
B|---------------------------------------------------------------------------------------|
G|---------------------------------------------------------------------------------------|
D|---------------------------------------------------------------------------------------|
A|-------------------5--------------------5----------------------------------------------|
E|-0--b3--7-p5-0-5-7----7-5-0--7-p5-0-5-7---7-5-0--5-p3-0-0-0--0-3-5-3-0--5-p3-0-0-0-----|

E|---------------------------------------------------------------------------------------|
B|---------------------------------------------------------------------------------------|
G|---------------------------------------------------------------------------------------|
D|--------------------------------------------------------------5------------------------|
A|-------------------5--------------------5--------7-7-7-7-p5-----7-5-------7-p5---5-h7-7|
E|--------7-p5-0-5-7----7-5-0--7-p5-0-5-7---7-5-0-------------7-------7----------7-------|

E|---------------------------------------------------------------------------------------|
B|---------------------------------------------------------------------------------------|
G|---------------------------------------------------------------------------------------|
D|-------------------5-------------------5-----------------------------------------------|
A|--------7-p5---5-7---7-5----7-p5---5-7---7-5-------------------------------------------|
E|-------------7-----------7-------7-----------7--5p-3-0-0-0--0-3-5-3-0--5-p3-0-0-0------|

E|---------------------------------------------------------------------------------------|
B|---------------------------------------------------------------------------------------|
G|---------------------------------------------------------------------------------------|
D|-----------------------------------------------------------------5---------------------|
A|-------------------5--------------------5----------7-7-7-7-7-7-7---7-5---7-------------|
E|-0--b3--7-p5-0-5-7----7-5-0--7-p5-0-5-7---7-5-0------------------------7---------------|



Verse 3
                 Am                           Em
I take one step forward, it's like two steps back
           Am                   Em
I may be weary, but my soul's intact
           C                    Em
Forever chasing, what I can't reach
          Am   C               Em
Forever pacing, lifes stoney beach


Chorus
             Am                C
I'm a simple man, had a simple plan
                     Em
I got a complicated life
 C                   G
Sometimes when you smile
     D                    Em
It makes the whole thing seem worthwhile
 C                   G
Sometimes when you smile
     D                  Am
It leads me down that final mile
                    C                      Em
That lets a simple man lead a complicated life

End
E|---------------------------------------------------------------------------------------|
B|---------------------------------------------------------------------------------------|
G|---------------------------------------------------------------------------------------|
D|-------------------------------------------------7-p5----------------------------------|
A|---------------------------5--7--7-p5--3----7----------7--7-p5-----7-------------------|
E|--0--b3--5--5--5-h7--5--3---------------------------------------7----------------------|