Take You To The Moon

Intro
E|----------------------------------------------------------|
B|----------------------------------------------------------|
G|----------------------------------------------------------|
D|-----------------2--5--5-/9-------------------2--5--5-/9--|
A|--------2--3--5----------------------2--3--5--------------|
E|--3--5-------------------------3--5-----------------------|

E|-----------------------------------------------------------------------------------|
B|-----------------------------------------------------------------12-----10-----8---|
G|--------------------------------------------------------------0------0------0------|
D|-----------------2--5--5-/10--10-/12--10-\8--8-/10--10-\8-\6-----------------------|
A|--------2--3--5--------------------------------------------------------------------|
E|--3--5-----------------------------------------------------------------------------|

 

Played during pre-chorus
E|------0-------0-------2-------0-------0-------0-------2-3-2------------------------|
B|-----1-1-----1-1-------2-------0-----1-1-----1-1-----3-----3-----------------------|
G|----2---2---0---0----4--4----0--0---0---0---2---2---2-------2----------------------|
D|---2-----2-2-----2--5----5--2----2-2-----2-2-----2-0-------------------------------|
A|--0-------3--------5-------2------3-------0----------------------------------------|
E|------------------3-------0--------------------------------------------------------|

 

Chorus:
G                              Em           E|-10-----------------------|
Who's going to take you to the moon         B|-----12--10------10-u12---|
                                 G|-------------12-----------|

C                              G      E|-10-----------------------|
Who's going to take you to the stars        B|-----12--10---------------|
                                 G|-------------12--12-------|

                               Em           E|-10-----------------------|
Who's going to wait around for you          B|-----12--10------10-u12---|
                                 G|-------------12-----------|

      C                            D        E|--------------------------|
Who's going to bring you back from Mars     B|-12--10-------------------|
                                 G|---------12--9--12--------|

G                            Em             E|-10-----------------------|
I'm going to take you to the moon           B|-----12--10------10-u12---|
                                 G|-------------12-----------|

             C               G              E|-10-----------------------|
I'm going to show you round the stars       B|-----12--10---------------|
                                 G|-------------12--12-------|

    G                    Em     
But if I take you to the moon        

     Am       C        D      G
Will you come back the way you are
E|-----------------------------------------------------------------------------------|
B|-12--10---------10----12--10----------------------12-----10-----8------------------|
G|---------12--9----------------12--9--12----9-h12------9------9---------------------|
D|-----------------------------------------------------------------------------------|
A|-----------------------------------------------------------------------------------|
E|-----------------------------------------------------------------------------------|

 

(solo)
E|-15-12-h15-p12---------------------------------------------------------------------|
B|---------------15-12-h15-p12----12-15-15p12-----------12-15-p12-h15-p12-----12-u13-|
G|-----------------------------14----------------12-h14-------------------14---------|
D|-----------------------------------------------------------------------------------|
A|-----------------------------------------------------------------------------------|
E|-----------------------------------------------------------------------------------|

E|-----------------------------------15-14-12----------------------------------------|
B|-12-u13-d12----12---------------------------15-u16-d15--12-u13-d12-----------------|
G|------------14----12-h14-p12----------------------------------------12-u13-d12-----|
D|-----------------------------14----------------------------------------------------|
A|-----------------------------------------------------------------------------------|
E|-----------------------------------------------------------------------------------|

E|---------------------------------12-h15-p12-h15-p12--12-15-17--17-p15----15-17-/19-|
B|--------12-15-12-h15-p12--12-h15--------------------------------------17-----------|
G|-12-h14----------------------------------------------------------------------------|
D|-----------------------------------------------------------------------------------|
A|-----------------------------------------------------------------------------------|
E|-----------------------------------------------------------------------------------|

E|----15----15-19--|
B|-17----17--------|
G|-----------------|
D|-----------------|
A|-----------------|
E|-----------------|

TAB
/    slide up
\    slide down
u    bend up
d    bend down
h    hammer on
p    pull off


======================================================================

Take You To The Moon

Supplied by Simo Neiglick

G             C     G
It's 3 AM I'm going home
  Em        Em7         C     G
I watch the white lines pass alone
G                   C      G
There is no moon so I just drive
  Em        Em7      C    G
I feel like the last man alive
G                     C   G
I find a voice on the radio
Em        Em7            C       G
It sounds like someone I used to know
G                           C       G
He sends out songs that are sad and slow
    Em      Em7     C       G
For us with nowhere else to go

Pre-chorus :
Am                   C
That's when I get to crying
G                         Em
And crying never makes no sense
     C                              Am               D Dsus4 D
When too much has gone on for it to ever be coincidence

 

Chorus:
G                              Em    
Who's going to take you to the moon  
                     

C                              G
Who's going to take you to the stars
                          

                               Em    
Who's going to wait around for you   
                          

      C                            D 
Who's going to bring you back from Mars
                          

G                            Em      
I'm going to take you to the moon    
                          

             C               G       
I'm going to show you round the stars
                          

    G                    Em     
But if I take you to the moon        

     Am       C        D      G
Will you come back the way you are

 

If absence makes the heart grow fond  Why does my presence seem so wrong
If I am here and you are gone         I wonder what it is I've done

(chorus)

 

We keep our secrets to ourselves      We leave those lies for someone else
We rise above what we used to be      Don't get discouraged easily

That's when there's no more crying    Cos crying never makes no sense
When too much has gone on             for it to ever be coincidence

 

Who's going to take you to the moon
Who's going to take you to the stars
Who's going to wait around for you
Who's going to bring you back from Mars
I'm going to take you to the moon
I'm going to show you round the stars
But if I take you to the moon
     Am    C       G       D
Will you come back the way you are

I'm gonna to take you to the moon
I'm gonna show you round the stars
But if I take you to the moon
Will you come back the way you are