TOO MANY GHOSTS (Adamson, Hummon)
The Raphaels - Supernatural

CAPO AT FOURTH FRET

G#|----------------------------------------------------|
D#|-----1-----1-----0-----0----------------------------|
B |----2-----0-----2-----2------2-----2-----1-----1----|
F#|---2-----2-----0-----0------2-----2-----2-----2-----|
C#|--0------------------------2-----2-----2-----2------|
G#|--------3-----2-----1-----0-----0-----0-----0-------|

G#|----------------------------------------------------|
D#|-----1-----1-----0-----0------------------0-1-0-----|
B |----2-----0-----2-----2------1-----1-----2------2---|
F#|---2-----2-----0-----0------2-----2-----2--------2--|
C#|--0------------------------2-----2-----0----------0-|
G#|--------3-----2-----1-----0-----0-------------------|

I took my past out for a ride along the North sea

G#|----------------------------------------------------|
D#|-----1-----1-----0-----0------------------0-1-0-----|
B |----2-----0-----2-----2------1-----1-----2------2---|
F#|---2-----2-----0-----0------2-----2-----2--------2--|
C#|--0------------------------2-----2-----0----------0-|
G#|--------3-----2-----1-----0-----0-------------------|

all my demons in the back seat crying out for me

G#|----------------------------------------------------|
D#|-----1-----1-----0-----0------------------0-1-0-----|
B |----2-----0-----2-----2------1-----1-----2------2---|
F#|---2-----2-----0-----0------2-----2-----2--------2--|
C#|--0------------------------2-----2-----0----------0-|
G#|--------3-----2-----1-----0-----0-------------------|

time to pay the piper, time to call in a marker, time to cought it up

G#|----------------------------------------------------|
D#|-----1-----1-----0-----0----------------------------|
B |----2-----0-----2-----2------2-----2-----1----------|
F#|---2-----2-----0-----0------2-----2-----2-----------|
C#|--0------------------------2-----2-----2------------|
G#|--------3-----2-----1-----0-----0-----0-------------|

the last thing on my mind was another shot at love

C#m       A        B
too many, too may, too many ghosts
D9         A
one to many ghosts to fall in love

C#m G#m A E9 B F C#m

C#m         G#m          A                     E9
avarice and drunkenness, pride and infidelity
B                      F#                   C#m
I left them out at the bus stop along the coast
C#m         G#m                         A                     E9
you brushed passed from nowhere and you sat right up front with me
    B                             F#                         C#m
you were looking like a virgin unconfirmed, waiting for the host
C#m                  G#m          A                     E9
but there aren't no virgins here, no novices, no innocence

B               F#                  C#m
just the dark desire for forgiveness

C#m       A        B
too many, too may, too many ghosts
D9         A
one to many ghosts to fall in love
C#m       A        B
too many, too may, too many ghosts
D9         A
one to many ghosts to fall in love

C#m A E9 C#m A E9
C#m G#m A E9 B F# C#m (solo)
C#m G#m A E9 B F# C#m (solo)

G#|----------------------------------------------------|
D#|-----1-----1-----0-----0------------------0-1-0-----|
B |----2-----0-----2-----2------1-----1-----2------2---|
F#|---2-----2-----0-----0------2-----2-----2--------2--|
C#|--0------------------------2-----2-----0----------0-|
G#|--------3-----2-----1-----0-----0-------------------|

I took my new love out for a ride along the North sea

G#|----------------------------------------------------|
D#|-----1-----1-----0-----0------------------0-1-0-----|
B |----2-----0-----2-----2------1-----1-----2------2---|
F#|---2-----2-----0-----0------2-----2-----2--------2--|
C#|--0------------------------2-----2-----0----------0-|
G#|--------3-----2-----1-----0-----0-------------------|

forgiveness or forgetfulness it's all the same to me

G#|----------------------------------------------------|
D#|-----1-----1-----0-----0------------------0-1-0-----|
B |----2-----0-----2-----2------1-----1-----2------2---|
F#|---2-----2-----0-----0------2-----2-----2--------2--|
C#|--0------------------------2-----2-----0----------0-|
G#|--------3-----2-----1-----0-----0-------------------|

and as I stare into her eyes and press my arms

G#|----------------------------------------------------|
D#|-----1-----1-----0-----0------------------0-1-0-----|
B |----2-----0-----2-----2------1-----1-----2------2---|
F#|---2-----2-----0-----0------2-----2-----2--------2--|
C#|--0------------------------2-----2-----0----------0-|
G#|--------3-----2-----1-----0-----0-------------------|

I look over her shoulder and there my demons are

C#m       A        B
too many, too may, too many ghosts
D9         A
one to many ghosts to fall in love
C#m       A        B
too many, too may, too many ghosts
D9         A
one to many ghosts to fall in love

C#m A E9 C#m A

G#|----------------------------------------------------|
D#|-----1-----1-----0-----0----------------------------|
B |----2-----0-----2-----2------2-----2-----1-----1----|
F#|---2-----2-----0-----0------2-----2-----2-----2-----|
C#|--0------------------------2-----2-----2-----2------|
G#|--------3-----2-----1-----0-----0-----0-----0-------|

C#m

16/09/02 by Daniele Ghezzi