Winter Sky

Intro X4
E|------------------------------------|
B|------------------------------------|
G|----6---6---7---7---9---9---7---6---|
D|---7-7-7-7-7-7-7-7-7-7-7-7-7-7-7-7--|
A|--0---0---0---0---0---0---0---0-----|
E|------------------------------------|

Verse - repeat throughout
E|-------------------|
B|------10--10---10--|
G|----9--------9-----|
D|--7----------------|
A|-------------------|
E|-------------------|

Post chorus riff - played with distortion/overdrive
E|-------------------------------------------------------------------------|
B|--------7--10--7----------------------------7--10--7--------7--10--7-----|
G|--6--9------------6--6--9--6-----6----6--9------------6--9------------9--|
D|------------------------------9------------------------------------------|
A|-------------------------------------------------------------------------|
E|-------------------------------------------------------------------------|

E|-------------------------------------------------------------------------|
B|--------7--10--7----------------------------7--10--7--------7--10--7-----|
G|--6--9------------6--6--9--6-----6----6--9------------6--9------------7--|
D|------------------------------9------------------------------------------|
A|-------------------------------------------------------------------------|
E|-------------------------------------------------------------------------|